ISO-10303-21;
HEADER;
FILE_DESCRIPTION (( 'STEP AP214' ),
    '1' );
FILE_NAME ('am-3947a-250 375H x 250IN Spacer.STEP',
    '2025-02-06T16:32:32',
    ( '' ),
    ( '' ),
    'SwSTEP 2.0',
    'SolidWorks 2024',
    '' );
FILE_SCHEMA (( 'AUTOMOTIVE_DESIGN' ));
ENDSEC;

DATA;
#1 = DIRECTION ( 'NONE',  ( 0.000000000000000000, 0.000000000000000000, 1.000000000000000000 ) ) ;
#2 =( GEOMETRIC_REPRESENTATION_CONTEXT ( 3 ) GLOBAL_UNCERTAINTY_ASSIGNED_CONTEXT ( ( #226 ) ) GLOBAL_UNIT_ASSIGNED_CONTEXT ( ( #133, #308, #216 ) ) REPRESENTATION_CONTEXT ( 'NONE', 'WORKASPACE' ) );
#3 = EDGE_CURVE ( 'NONE', #263, #149, #69, .T. ) ;
#4 = ORIENTED_EDGE ( 'NONE', *, *, #80, .T. ) ;
#5 = DIRECTION ( 'NONE',  ( 1.000000000000000000, 0.000000000000000000, 0.000000000000000000 ) ) ;
#6 = EDGE_LOOP ( 'NONE', ( #112, #192, #66, #191, #118, #215 ) ) ;
#7 = ORIENTED_EDGE ( 'NONE', *, *, #131, .T. ) ;
#8 = APPLICATION_CONTEXT ( 'automotive_design' ) ;
#9 = FACE_BOUND ( 'NONE', #141, .T. ) ;
#10 = ORIENTED_EDGE ( 'NONE', *, *, #40, .F. ) ;
#11 = EDGE_CURVE ( 'NONE', #134, #61, #175, .T. ) ;
#12 = CARTESIAN_POINT ( 'NONE',  ( 0.1085418506076495232, 0.1880000000000000282, 0.000000000000000000 ) ) ;
#13 = EDGE_LOOP ( 'NONE', ( #188, #321, #100, #4 ) ) ;
#14 = LINE ( 'NONE', #322, #233 ) ;
#15 = EDGE_CURVE ( 'NONE', #184, #90, #72, .T. ) ;
#16 = CYLINDRICAL_SURFACE ( 'NONE', #157, 0.3125000000000000000 ) ;
#17 = AXIS2_PLACEMENT_3D ( 'NONE', #274, #70, #48 ) ;
#18 = LINE ( 'NONE', #251, #320 ) ;
#19 = FACE_OUTER_BOUND ( 'NONE', #211, .T. ) ;
#20 = DIRECTION ( 'NONE',  ( -0.000000000000000000, -0.000000000000000000, -1.000000000000000000 ) ) ;
#21 = VECTOR ( 'NONE', #76, 39.37007874015748143 ) ;
#22 = CARTESIAN_POINT ( 'NONE',  ( -0.1085418506076496065, 0.1880000000000000282, 0.2500000000000000000 ) ) ;
#23 = DIRECTION ( 'NONE',  ( 0.8660254037844385966, -0.5000000000000001110, 0.000000000000000000 ) ) ;
#24 = EDGE_CURVE ( 'NONE', #81, #271, #50, .T. ) ;
#25 = CARTESIAN_POINT ( 'NONE',  ( 0.000000000000000000, 0.000000000000000000, 0.2500000000000000000 ) ) ;
#26 = VECTOR ( 'NONE', #71, 39.37007874015748143 ) ;
#27 = CARTESIAN_POINT ( 'NONE',  ( 0.2170837012152992962, -8.629126648930641522E-21, 0.2500000000000000000 ) ) ;
#28 = CARTESIAN_POINT ( 'NONE',  ( 0.1085418506076495232, 0.1880000000000000282, 0.2500000000000000000 ) ) ;
#29 = PRODUCT_DEFINITION_SHAPE ( 'NONE', 'NONE',  #260 ) ;
#30 = LINE ( 'NONE', #85, #225 ) ;
#31 = ORIENTED_EDGE ( 'NONE', *, *, #179, .T. ) ;
#32 = ADVANCED_FACE ( 'NONE', ( #121 ), #16, .T. ) ;
#33 = VECTOR ( 'NONE', #223, 39.37007874015748143 ) ;
#34 = DIRECTION ( 'NONE',  ( 1.000000000000000000, 0.000000000000000000, -0.000000000000000000 ) ) ;
#35 = ORIENTED_EDGE ( 'NONE', *, *, #130, .T. ) ;
#36 =( NAMED_UNIT ( * ) SI_UNIT ( $, .STERADIAN. ) SOLID_ANGLE_UNIT ( ) );
#37 = ORIENTED_EDGE ( 'NONE', *, *, #286, .T. ) ;
#38 = LINE ( 'NONE', #60, #145 ) ;
#39 = ORIENTED_EDGE ( 'NONE', *, *, #305, .F. ) ;
#40 = EDGE_CURVE ( 'NONE', #210, #44, #299, .T. ) ;
#41 = CIRCLE ( 'NONE', #173, 0.3125000000000000000 ) ;
#42 = LENGTH_MEASURE_WITH_UNIT ( LENGTH_MEASURE( 0.02539999999999999897 ), #114 );
#43 = EDGE_LOOP ( 'NONE', ( #39, #222, #241, #165 ) ) ;
#44 = VERTEX_POINT ( 'NONE', #150 ) ;
#45 = DIRECTION ( 'NONE',  ( 0.5000000000000001110, -0.8660254037844385966, 0.000000000000000000 ) ) ;
#46 = AXIS2_PLACEMENT_3D ( 'NONE', #323, #94, #269 ) ;
#47 = LINE ( 'NONE', #148, #84 ) ;
#48 = DIRECTION ( 'NONE',  ( 1.000000000000000000, 0.000000000000000000, -0.000000000000000000 ) ) ;
#49 = PRODUCT_CONTEXT ( 'NONE', #8, 'mechanical' ) ;
#50 = LINE ( 'NONE', #270, #26 ) ;
#51 = LINE ( 'NONE', #176, #21 ) ;
#52 = VECTOR ( 'NONE', #306, 39.37007874015748143 ) ;
#53 = DIRECTION ( 'NONE',  ( 1.000000000000000000, 0.000000000000000000, 0.000000000000000000 ) ) ;
#54 = CARTESIAN_POINT ( 'NONE',  ( 0.1085418506076496203, -0.1879999999999999727, 0.2500000000000000000 ) ) ;
#55 = CARTESIAN_POINT ( 'NONE',  ( 0.1085418506076496203, -0.1879999999999999727, 0.2500000000000000000 ) ) ;
#56 = DIRECTION ( 'NONE',  ( 0.8660254037844385966, 0.5000000000000001110, -0.000000000000000000 ) ) ;
#57 = DIRECTION ( 'NONE',  ( -1.000000000000000000, 0.000000000000000000, 0.000000000000000000 ) ) ;
#58 = ORIENTED_EDGE ( 'NONE', *, *, #332, .T. ) ;
#59 = AXIS2_PLACEMENT_3D ( 'NONE', #55, #75, #158 ) ;
#60 = CARTESIAN_POINT ( 'NONE',  ( 0.2170837012152992962, -8.629126648930641522E-21, 0.2500000000000000000 ) ) ;
#61 = VERTEX_POINT ( 'NONE', #93 ) ;
#62 = ADVANCED_FACE ( 'NONE', ( #19, #297 ), #196, .T. ) ;
#63 = FILL_AREA_STYLE ('',( #166 ) ) ;
#64 = EDGE_CURVE ( 'NONE', #116, #44, #199, .T. ) ;
#65 = ORIENTED_EDGE ( 'NONE', *, *, #105, .F. ) ;
#66 = ORIENTED_EDGE ( 'NONE', *, *, #124, .F. ) ;
#67 = CLOSED_SHELL ( 'NONE', ( #213, #62, #298, #32, #168, #147, #288, #120, #218, #190 ) ) ;
#68 = ORIENTED_EDGE ( 'NONE', *, *, #250, .T. ) ;
#69 = LINE ( 'NONE', #246, #33 ) ;
#70 = DIRECTION ( 'NONE',  ( 0.000000000000000000, 0.000000000000000000, 1.000000000000000000 ) ) ;
#71 = DIRECTION ( 'NONE',  ( -0.5000000000000004441, 0.8660254037844383745, 0.000000000000000000 ) ) ;
#72 = LINE ( 'NONE', #195, #325 ) ;
#73 = EDGE_CURVE ( 'NONE', #313, #271, #18, .T. ) ;
#74 = DIRECTION ( 'NONE',  ( -0.000000000000000000, -0.000000000000000000, -1.000000000000000000 ) ) ;
#75 = DIRECTION ( 'NONE',  ( -0.8660254037844385966, 0.5000000000000001110, 0.000000000000000000 ) ) ;
#76 = DIRECTION ( 'NONE',  ( 0.5000000000000001110, -0.8660254037844385966, 0.000000000000000000 ) ) ;
#77 = CARTESIAN_POINT ( 'NONE',  ( 0.000000000000000000, 0.000000000000000000, 0.000000000000000000 ) ) ;
#78 = LINE ( 'NONE', #181, #284 ) ;
#79 = VECTOR ( 'NONE', #200, 39.37007874015748143 ) ;
#80 = EDGE_CURVE ( 'NONE', #90, #116, #123, .T. ) ;
#81 = VERTEX_POINT ( 'NONE', #326 ) ;
#82 = CARTESIAN_POINT ( 'NONE',  ( 0.1085418506076495232, 0.1880000000000000282, 0.2500000000000000000 ) ) ;
#83 = ORIENTED_EDGE ( 'NONE', *, *, #40, .T. ) ;
#84 = VECTOR ( 'NONE', #74, 39.37007874015748143 ) ;
#85 = CARTESIAN_POINT ( 'NONE',  ( -0.1085418506076496065, 0.1880000000000000282, 0.000000000000000000 ) ) ;
#86 = ORIENTED_EDGE ( 'NONE', *, *, #273, .T. ) ;
#87 = CARTESIAN_POINT ( 'NONE',  ( -0.1085418506076496065, 0.1880000000000000282, 0.000000000000000000 ) ) ;
#88 = EDGE_LOOP ( 'NONE', ( #309, #161 ) ) ;
#89 = DIMENSIONAL_EXPONENTS ( 1.000000000000000000, 0.000000000000000000, 0.000000000000000000, 0.000000000000000000, 0.000000000000000000, 0.000000000000000000, 0.000000000000000000 ) ;
#90 = VERTEX_POINT ( 'NONE', #301 ) ;
#91 = MECHANICAL_DESIGN_GEOMETRIC_PRESENTATION_REPRESENTATION (  '', ( #272 ), #330 ) ;
#92 = EDGE_CURVE ( 'NONE', #239, #292, #47, .T. ) ;
#93 = CARTESIAN_POINT ( 'NONE',  ( 0.3125000000000000000, 3.827021247335478926E-17, 0.000000000000000000 ) ) ;
#94 = DIRECTION ( 'NONE',  ( 0.000000000000000000, 0.000000000000000000, 1.000000000000000000 ) ) ;
#95 = ORIENTED_EDGE ( 'NONE', *, *, #3, .T. ) ;
#96 = DIRECTION ( 'NONE',  ( 0.5000000000000001110, 0.8660254037844385966, 0.000000000000000000 ) ) ;
#97 = EDGE_CURVE ( 'NONE', #44, #149, #267, .T. ) ;
#98 = VECTOR ( 'NONE', #144, 39.37007874015748143 ) ;
#99 = DIRECTION ( 'NONE',  ( -1.000000000000000000, 0.000000000000000000, 0.000000000000000000 ) ) ;
#100 = ORIENTED_EDGE ( 'NONE', *, *, #15, .T. ) ;
#101 = DIRECTION ( 'NONE',  ( 0.5000000000000001110, 0.8660254037844385966, 0.000000000000000000 ) ) ;
#102 = DIRECTION ( 'NONE',  ( 0.5000000000000004441, -0.8660254037844383745, 0.000000000000000000 ) ) ;
#103 = CARTESIAN_POINT ( 'NONE',  ( -0.1085418506076496065, 0.1880000000000000282, 0.2500000000000000000 ) ) ;
#104 = DIRECTION ( 'NONE',  ( 0.000000000000000000, -0.000000000000000000, 1.000000000000000000 ) ) ;
#105 = EDGE_CURVE ( 'NONE', #149, #81, #14, .T. ) ;
#106 = CARTESIAN_POINT ( 'NONE',  ( -0.1085418506076496065, 0.1880000000000000282, 0.2500000000000000000 ) ) ;
#107 = AXIS2_PLACEMENT_3D ( 'NONE', #25, #331, #255 ) ;
#108 = ADVANCED_BREP_SHAPE_REPRESENTATION ( 'am-3947a-250 375H x 250IN Spacer', ( #281, #46 ), #2 ) ;
#109 = DIRECTION ( 'NONE',  ( 0.000000000000000000, -1.000000000000000000, 0.000000000000000000 ) ) ;
#110 = ORIENTED_EDGE ( 'NONE', *, *, #275, .T. ) ;
#111 = FACE_OUTER_BOUND ( 'NONE', #43, .T. ) ;
#112 = ORIENTED_EDGE ( 'NONE', *, *, #286, .F. ) ;
#113 = ORIENTED_EDGE ( 'NONE', *, *, #64, .T. ) ;
#114 =( LENGTH_UNIT ( ) NAMED_UNIT ( * ) SI_UNIT ( $, .METRE. ) );
#115 = ORIENTED_EDGE ( 'NONE', *, *, #24, .F. ) ;
#116 = VERTEX_POINT ( 'NONE', #117 ) ;
#117 = CARTESIAN_POINT ( 'NONE',  ( -0.2170837012152992962, -6.822844948385385685E-21, 0.000000000000000000 ) ) ;
#118 = ORIENTED_EDGE ( 'NONE', *, *, #15, .F. ) ;
#119 = ORIENTED_EDGE ( 'NONE', *, *, #278, .T. ) ;
#120 = ADVANCED_FACE ( 'NONE', ( #319 ), #296, .T. ) ;
#121 = FACE_OUTER_BOUND ( 'NONE', #185, .T. ) ;
#122 = AXIS2_PLACEMENT_3D ( 'NONE', #77, #243, #5 ) ;
#123 = LINE ( 'NONE', #227, #98 ) ;
#124 = EDGE_CURVE ( 'NONE', #210, #263, #78, .T. ) ;
#125 = FACE_OUTER_BOUND ( 'NONE', #217, .T. ) ;
#126 = PLANE ( 'NONE',  #186 ) ;
#127 = PLANE ( 'NONE',  #146 ) ;
#128 = CIRCLE ( 'NONE', #266, 0.3125000000000000000 ) ;
#129 = PLANE ( 'NONE',  #59 ) ;
#130 = EDGE_CURVE ( 'NONE', #239, #134, #41, .T. ) ;
#131 = EDGE_CURVE ( 'NONE', #134, #239, #128, .T. ) ;
#132 = CARTESIAN_POINT ( 'NONE',  ( 0.2170837012152992962, -8.629126648930641522E-21, 0.2500000000000000000 ) ) ;
#133 =( CONVERSION_BASED_UNIT ( 'INCH', #42 ) LENGTH_UNIT ( ) NAMED_UNIT ( #142 ) );
#134 = VERTEX_POINT ( 'NONE', #206 ) ;
#135 = CIRCLE ( 'NONE', #212, 0.3125000000000000000 ) ;
#136 = ORIENTED_EDGE ( 'NONE', *, *, #105, .T. ) ;
#137 =( LENGTH_UNIT ( ) NAMED_UNIT ( * ) SI_UNIT ( $, .METRE. ) );
#138 = ORIENTED_EDGE ( 'NONE', *, *, #73, .T. ) ;
#139 = VECTOR ( 'NONE', #101, 39.37007874015748143 ) ;
#140 = DIRECTION ( 'NONE',  ( 0.000000000000000000, -0.000000000000000000, -1.000000000000000000 ) ) ;
#141 = EDGE_LOOP ( 'NONE', ( #136, #220, #293, #58, #113, #294 ) ) ;
#142 = DIMENSIONAL_EXPONENTS ( 1.000000000000000000, 0.000000000000000000, 0.000000000000000000, 0.000000000000000000, 0.000000000000000000, 0.000000000000000000, 0.000000000000000000 ) ;
#143 = CARTESIAN_POINT ( 'NONE',  ( -0.1085418506076496065, -0.1879999999999999727, 0.000000000000000000 ) ) ;
#144 = DIRECTION ( 'NONE',  ( -0.000000000000000000, -0.000000000000000000, -1.000000000000000000 ) ) ;
#145 = VECTOR ( 'NONE', #264, 39.37007874015748143 ) ;
#146 = AXIS2_PLACEMENT_3D ( 'NONE', #178, #154, #102 ) ;
#147 = ADVANCED_FACE ( 'NONE', ( #253 ), #127, .T. ) ;
#148 = CARTESIAN_POINT ( 'NONE',  ( -0.3125000000000000000, 0.000000000000000000, 0.2500000000000000000 ) ) ;
#149 = VERTEX_POINT ( 'NONE', #285 ) ;
#150 = CARTESIAN_POINT ( 'NONE',  ( -0.1085418506076496065, -0.1879999999999999727, 0.000000000000000000 ) ) ;
#151 = AXIS2_PLACEMENT_3D ( 'NONE', #187, #109, #140 ) ;
#152 = LINE ( 'NONE', #22, #247 ) ;
#153 = PRODUCT_RELATED_PRODUCT_CATEGORY ( 'part', '', ( #291 ) ) ;
#154 = DIRECTION ( 'NONE',  ( -0.8660254037844383745, -0.5000000000000004441, 0.000000000000000000 ) ) ;
#155 = DIRECTION ( 'NONE',  ( 0.000000000000000000, 0.000000000000000000, 1.000000000000000000 ) ) ;
#156 = DIRECTION ( 'NONE',  ( 0.000000000000000000, 1.000000000000000000, 0.000000000000000000 ) ) ;
#157 = AXIS2_PLACEMENT_3D ( 'NONE', #249, #224, #99 ) ;
#158 = DIRECTION ( 'NONE',  ( -0.5000000000000001110, -0.8660254037844385966, 0.000000000000000000 ) ) ;
#159 = PRODUCT_DEFINITION_CONTEXT ( 'detailed design', #317, 'design' ) ;
#160 = DIRECTION ( 'NONE',  ( -0.5000000000000001110, -0.8660254037844385966, 0.000000000000000000 ) ) ;
#161 = ORIENTED_EDGE ( 'NONE', *, *, #273, .F. ) ;
#162 = PRODUCT_DEFINITION_FORMATION_WITH_SPECIFIED_SOURCE ( 'ANY', '', #291, .NOT_KNOWN. ) ;
#163 = UNCERTAINTY_MEASURE_WITH_UNIT (LENGTH_MEASURE( 1.000000000000000082E-05 ), #240, 'distance_accuracy_value', 'NONE');
#164 = FACE_OUTER_BOUND ( 'NONE', #88, .T. ) ;
#165 = ORIENTED_EDGE ( 'NONE', *, *, #268, .T. ) ;
#166 = FILL_AREA_STYLE_COLOUR ( '', #295 ) ;
#167 = ORIENTED_EDGE ( 'NONE', *, *, #92, .T. ) ;
#168 = ADVANCED_FACE ( 'NONE', ( #283 ), #129, .T. ) ;
#169 = ORIENTED_EDGE ( 'NONE', *, *, #11, .F. ) ;
#170 = ORIENTED_EDGE ( 'NONE', *, *, #275, .F. ) ;
#171 = DIRECTION ( 'NONE',  ( -0.000000000000000000, -0.000000000000000000, -1.000000000000000000 ) ) ;
#172 = EDGE_LOOP ( 'NONE', ( #244, #10, #287, #95 ) ) ;
#173 = AXIS2_PLACEMENT_3D ( 'NONE', #231, #1, #204 ) ;
#174 = CARTESIAN_POINT ( 'NONE',  ( -0.1085418506076496065, -0.1879999999999999727, 0.2500000000000000000 ) ) ;
#175 = LINE ( 'NONE', #276, #242 ) ;
#176 = CARTESIAN_POINT ( 'NONE',  ( -0.2170837012152992962, -6.822844948385385685E-21, 0.2500000000000000000 ) ) ;
#177 = CARTESIAN_POINT ( 'NONE',  ( -0.3125000000000000000, 0.000000000000000000, 0.2500000000000000000 ) ) ;
#178 = CARTESIAN_POINT ( 'NONE',  ( 0.2170837012152992962, -8.629126648930641522E-21, 0.2500000000000000000 ) ) ;
#179 = EDGE_CURVE ( 'NONE', #90, #210, #51, .T. ) ;
#180 = DIRECTION ( 'NONE',  ( 0.5000000000000001110, 0.8660254037844385966, 0.000000000000000000 ) ) ;
#181 = CARTESIAN_POINT ( 'NONE',  ( -0.1085418506076496065, -0.1879999999999999727, 0.2500000000000000000 ) ) ;
#182 = VECTOR ( 'NONE', #245, 39.37007874015748143 ) ;
#183 = DIRECTION ( 'NONE',  ( 0.000000000000000000, 0.000000000000000000, 1.000000000000000000 ) ) ;
#184 = VERTEX_POINT ( 'NONE', #106 ) ;
#185 = EDGE_LOOP ( 'NONE', ( #169, #234, #167, #119 ) ) ;
#186 = AXIS2_PLACEMENT_3D ( 'NONE', #205, #156, #104 ) ;
#187 = CARTESIAN_POINT ( 'NONE',  ( 0.1085418506076495232, 0.1880000000000000282, 0.2500000000000000000 ) ) ;
#188 = ORIENTED_EDGE ( 'NONE', *, *, #332, .F. ) ;
#189 =( NAMED_UNIT ( * ) PLANE_ANGLE_UNIT ( ) SI_UNIT ( $, .RADIAN. ) );
#190 = ADVANCED_FACE ( 'NONE', ( #333 ), #126, .T. ) ;
#191 = ORIENTED_EDGE ( 'NONE', *, *, #179, .F. ) ;
#192 = ORIENTED_EDGE ( 'NONE', *, *, #250, .F. ) ;
#193 = AXIS2_PLACEMENT_3D ( 'NONE', #282, #56, #277 ) ;
#194 = DIRECTION ( 'NONE',  ( -0.5000000000000001110, -0.8660254037844385966, 0.000000000000000000 ) ) ;
#195 = CARTESIAN_POINT ( 'NONE',  ( -0.1085418506076496065, 0.1880000000000000282, 0.2500000000000000000 ) ) ;
#196 = PLANE ( 'NONE',  #17 ) ;
#197 = AXIS2_PLACEMENT_3D ( 'NONE', #103, #23, #180 ) ;
#198 = SHAPE_DEFINITION_REPRESENTATION ( #29, #108 ) ;
#199 = LINE ( 'NONE', #300, #202 ) ;
#200 = DIRECTION ( 'NONE',  ( -0.000000000000000000, -0.000000000000000000, -1.000000000000000000 ) ) ;
#201 = CARTESIAN_POINT ( 'NONE',  ( -0.1085418506076496065, -0.1879999999999999727, 0.2500000000000000000 ) ) ;
#202 = VECTOR ( 'NONE', #45, 39.37007874015748143 ) ;
#203 = CARTESIAN_POINT ( 'NONE',  ( 0.000000000000000000, 0.000000000000000000, 0.2500000000000000000 ) ) ;
#204 = DIRECTION ( 'NONE',  ( 1.000000000000000000, 0.000000000000000000, 0.000000000000000000 ) ) ;
#205 = CARTESIAN_POINT ( 'NONE',  ( -0.1085418506076496065, -0.1879999999999999727, 0.2500000000000000000 ) ) ;
#206 = CARTESIAN_POINT ( 'NONE',  ( 0.3125000000000000000, 3.827021247335478926E-17, 0.2500000000000000000 ) ) ;
#207 = CARTESIAN_POINT ( 'NONE',  ( -0.3125000000000000000, 0.000000000000000000, 0.000000000000000000 ) ) ;
#208 = ORIENTED_EDGE ( 'NONE', *, *, #11, .T. ) ;
#209 = PLANE ( 'NONE',  #151 ) ;
#210 = VERTEX_POINT ( 'NONE', #201 ) ;
#211 = EDGE_LOOP ( 'NONE', ( #35, #7 ) ) ;
#212 = AXIS2_PLACEMENT_3D ( 'NONE', #280, #228, #53 ) ;
#213 = ADVANCED_FACE ( 'NONE', ( #125 ), #252, .T. ) ;
#214 = PRESENTATION_STYLE_ASSIGNMENT (( #235 ) ) ;
#215 = ORIENTED_EDGE ( 'NONE', *, *, #238, .F. ) ;
#216 =( NAMED_UNIT ( * ) SI_UNIT ( $, .STERADIAN. ) SOLID_ANGLE_UNIT ( ) );
#217 = EDGE_LOOP ( 'NONE', ( #248, #208, #86, #265 ) ) ;
#218 = ADVANCED_FACE ( 'NONE', ( #303 ), #229, .T. ) ;
#219 = APPLICATION_PROTOCOL_DEFINITION ( 'draft international standard', 'automotive_design', 1998, #8 ) ;
#220 = ORIENTED_EDGE ( 'NONE', *, *, #24, .T. ) ;
#221 = CIRCLE ( 'NONE', #122, 0.3125000000000000000 ) ;
#222 = ORIENTED_EDGE ( 'NONE', *, *, #73, .F. ) ;
#223 = DIRECTION ( 'NONE',  ( -0.000000000000000000, -0.000000000000000000, -1.000000000000000000 ) ) ;
#224 = DIRECTION ( 'NONE',  ( -0.000000000000000000, -0.000000000000000000, -1.000000000000000000 ) ) ;
#225 = VECTOR ( 'NONE', #160, 39.37007874015748143 ) ;
#226 = UNCERTAINTY_MEASURE_WITH_UNIT (LENGTH_MEASURE( 1.000000000000000082E-05 ), #133, 'distance_accuracy_value', 'NONE');
#227 = CARTESIAN_POINT ( 'NONE',  ( -0.2170837012152992962, -6.822844948385385685E-21, 0.2500000000000000000 ) ) ;
#228 = DIRECTION ( 'NONE',  ( 0.000000000000000000, 0.000000000000000000, 1.000000000000000000 ) ) ;
#229 = PLANE ( 'NONE',  #193 ) ;
#230 = CARTESIAN_POINT ( 'NONE',  ( 0.1085418506076496203, -0.1879999999999999727, 0.2500000000000000000 ) ) ;
#231 = CARTESIAN_POINT ( 'NONE',  ( 0.000000000000000000, 0.000000000000000000, 0.2500000000000000000 ) ) ;
#232 = DIRECTION ( 'NONE',  ( -0.000000000000000000, -0.000000000000000000, -1.000000000000000000 ) ) ;
#233 = VECTOR ( 'NONE', #96, 39.37007874015748143 ) ;
#234 = ORIENTED_EDGE ( 'NONE', *, *, #130, .F. ) ;
#235 = SURFACE_STYLE_USAGE ( .BOTH. , #262 ) ;
#236 = ORIENTED_EDGE ( 'NONE', *, *, #80, .F. ) ;
#237 = SURFACE_STYLE_FILL_AREA ( #63 ) ;
#238 = EDGE_CURVE ( 'NONE', #313, #184, #256, .T. ) ;
#239 = VERTEX_POINT ( 'NONE', #177 ) ;
#240 =( CONVERSION_BASED_UNIT ( 'INCH', #314 ) LENGTH_UNIT ( ) NAMED_UNIT ( #89 ) );
#241 = ORIENTED_EDGE ( 'NONE', *, *, #238, .T. ) ;
#242 = VECTOR ( 'NONE', #171, 39.37007874015748143 ) ;
#243 = DIRECTION ( 'NONE',  ( 0.000000000000000000, 0.000000000000000000, 1.000000000000000000 ) ) ;
#244 = ORIENTED_EDGE ( 'NONE', *, *, #97, .F. ) ;
#245 = DIRECTION ( 'NONE',  ( 1.000000000000000000, 0.000000000000000000, 0.000000000000000000 ) ) ;
#246 = CARTESIAN_POINT ( 'NONE',  ( 0.1085418506076496203, -0.1879999999999999727, 0.2500000000000000000 ) ) ;
#247 = VECTOR ( 'NONE', #232, 39.37007874015748143 ) ;
#248 = ORIENTED_EDGE ( 'NONE', *, *, #131, .F. ) ;
#249 = CARTESIAN_POINT ( 'NONE',  ( 0.000000000000000000, 0.000000000000000000, 0.2500000000000000000 ) ) ;
#250 = EDGE_CURVE ( 'NONE', #263, #261, #304, .T. ) ;
#251 = CARTESIAN_POINT ( 'NONE',  ( 0.1085418506076495232, 0.1880000000000000282, 0.2500000000000000000 ) ) ;
#252 = CYLINDRICAL_SURFACE ( 'NONE', #107, 0.3125000000000000000 ) ;
#253 = FACE_OUTER_BOUND ( 'NONE', #311, .T. ) ;
#254 = LINE ( 'NONE', #27, #52 ) ;
#255 = DIRECTION ( 'NONE',  ( -1.000000000000000000, 0.000000000000000000, 0.000000000000000000 ) ) ;
#256 = LINE ( 'NONE', #28, #279 ) ;
#257 = PLANE ( 'NONE',  #329 ) ;
#258 = PRESENTATION_LAYER_ASSIGNMENT (  '', '', ( #272 ) ) ;
#259 = ORIENTED_EDGE ( 'NONE', *, *, #3, .F. ) ;
#260 = PRODUCT_DEFINITION ( 'UNKNOWN', '', #162, #159 ) ;
#261 = VERTEX_POINT ( 'NONE', #132 ) ;
#262 = SURFACE_SIDE_STYLE ('',( #237 ) ) ;
#263 = VERTEX_POINT ( 'NONE', #54 ) ;
#264 = DIRECTION ( 'NONE',  ( -0.5000000000000004441, 0.8660254037844383745, 0.000000000000000000 ) ) ;
#265 = ORIENTED_EDGE ( 'NONE', *, *, #92, .F. ) ;
#266 = AXIS2_PLACEMENT_3D ( 'NONE', #203, #155, #307 ) ;
#267 = LINE ( 'NONE', #143, #182 ) ;
#268 = EDGE_CURVE ( 'NONE', #184, #290, #152, .T. ) ;
#269 = DIRECTION ( 'NONE',  ( 1.000000000000000000, 0.000000000000000000, 0.000000000000000000 ) ) ;
#270 = CARTESIAN_POINT ( 'NONE',  ( 0.2170837012152992962, -8.629126648930641522E-21, 0.000000000000000000 ) ) ;
#271 = VERTEX_POINT ( 'NONE', #327 ) ;
#272 = STYLED_ITEM ( 'NONE', ( #214 ), #281 ) ;
#273 = EDGE_CURVE ( 'NONE', #61, #292, #135, .T. ) ;
#274 = CARTESIAN_POINT ( 'NONE',  ( 0.000000000000000000, 0.000000000000000000, 0.2500000000000000000 ) ) ;
#275 = EDGE_CURVE ( 'NONE', #261, #81, #254, .T. ) ;
#276 = CARTESIAN_POINT ( 'NONE',  ( 0.3125000000000000000, 3.827021247335478926E-17, 0.2500000000000000000 ) ) ;
#277 = DIRECTION ( 'NONE',  ( -0.5000000000000001110, 0.8660254037844385966, 0.000000000000000000 ) ) ;
#278 = EDGE_CURVE ( 'NONE', #292, #61, #221, .T. ) ;
#279 = VECTOR ( 'NONE', #328, 39.37007874015748143 ) ;
#280 = CARTESIAN_POINT ( 'NONE',  ( 0.000000000000000000, 0.000000000000000000, 0.000000000000000000 ) ) ;
#281 = MANIFOLD_SOLID_BREP ( 'Boss-Extrude1', #67 ) ;
#282 = CARTESIAN_POINT ( 'NONE',  ( -0.2170837012152992962, -6.822844948385385685E-21, 0.2500000000000000000 ) ) ;
#283 = FACE_OUTER_BOUND ( 'NONE', #315, .T. ) ;
#284 = VECTOR ( 'NONE', #302, 39.37007874015748143 ) ;
#285 = CARTESIAN_POINT ( 'NONE',  ( 0.1085418506076496203, -0.1879999999999999727, 0.000000000000000000 ) ) ;
#286 = EDGE_CURVE ( 'NONE', #261, #313, #38, .T. ) ;
#287 = ORIENTED_EDGE ( 'NONE', *, *, #124, .T. ) ;
#288 = ADVANCED_FACE ( 'NONE', ( #111 ), #209, .T. ) ;
#289 = VECTOR ( 'NONE', #57, 39.37007874015748143 ) ;
#290 = VERTEX_POINT ( 'NONE', #87 ) ;
#291 = PRODUCT ( 'am-3947a-250 375H x 250IN Spacer', 'am-3947a-250 375H x 250IN Spacer', '', ( #49 ) ) ;
#292 = VERTEX_POINT ( 'NONE', #207 ) ;
#293 = ORIENTED_EDGE ( 'NONE', *, *, #305, .T. ) ;
#294 = ORIENTED_EDGE ( 'NONE', *, *, #97, .T. ) ;
#295 = COLOUR_RGB ( '',0.7921568627450980005, 0.8196078431372548767, 0.9333333333333333481 ) ;
#296 = PLANE ( 'NONE',  #197 ) ;
#297 = FACE_BOUND ( 'NONE', #6, .T. ) ;
#298 = ADVANCED_FACE ( 'NONE', ( #164, #9 ), #257, .F. ) ;
#299 = LINE ( 'NONE', #174, #79 ) ;
#300 = CARTESIAN_POINT ( 'NONE',  ( -0.2170837012152992962, -6.822844948385385685E-21, 0.000000000000000000 ) ) ;
#301 = CARTESIAN_POINT ( 'NONE',  ( -0.2170837012152992962, -6.822844948385385685E-21, 0.2500000000000000000 ) ) ;
#302 = DIRECTION ( 'NONE',  ( 1.000000000000000000, 0.000000000000000000, 0.000000000000000000 ) ) ;
#303 = FACE_OUTER_BOUND ( 'NONE', #324, .T. ) ;
#304 = LINE ( 'NONE', #230, #139 ) ;
#305 = EDGE_CURVE ( 'NONE', #271, #290, #312, .T. ) ;
#306 = DIRECTION ( 'NONE',  ( -0.000000000000000000, -0.000000000000000000, -1.000000000000000000 ) ) ;
#307 = DIRECTION ( 'NONE',  ( 1.000000000000000000, 0.000000000000000000, 0.000000000000000000 ) ) ;
#308 =( NAMED_UNIT ( * ) PLANE_ANGLE_UNIT ( ) SI_UNIT ( $, .RADIAN. ) );
#309 = ORIENTED_EDGE ( 'NONE', *, *, #278, .F. ) ;
#310 = CARTESIAN_POINT ( 'NONE',  ( 0.000000000000000000, 0.000000000000000000, 0.000000000000000000 ) ) ;
#311 = EDGE_LOOP ( 'NONE', ( #115, #170, #37, #138 ) ) ;
#312 = LINE ( 'NONE', #12, #289 ) ;
#313 = VERTEX_POINT ( 'NONE', #82 ) ;
#314 = LENGTH_MEASURE_WITH_UNIT ( LENGTH_MEASURE( 0.02539999999999999897 ), #137 );
#315 = EDGE_LOOP ( 'NONE', ( #65, #259, #68, #110 ) ) ;
#316 = ORIENTED_EDGE ( 'NONE', *, *, #64, .F. ) ;
#317 = APPLICATION_CONTEXT ( 'automotive_design' ) ;
#318 = APPLICATION_PROTOCOL_DEFINITION ( 'draft international standard', 'automotive_design', 1998, #317 ) ;
#319 = FACE_OUTER_BOUND ( 'NONE', #13, .T. ) ;
#320 = VECTOR ( 'NONE', #20, 39.37007874015748143 ) ;
#321 = ORIENTED_EDGE ( 'NONE', *, *, #268, .F. ) ;
#322 = CARTESIAN_POINT ( 'NONE',  ( 0.1085418506076496203, -0.1879999999999999727, 0.000000000000000000 ) ) ;
#323 = CARTESIAN_POINT ( 'NONE',  ( 0.000000000000000000, 0.000000000000000000, 0.000000000000000000 ) ) ;
#324 = EDGE_LOOP ( 'NONE', ( #316, #236, #31, #83 ) ) ;
#325 = VECTOR ( 'NONE', #194, 39.37007874015748143 ) ;
#326 = CARTESIAN_POINT ( 'NONE',  ( 0.2170837012152992962, -8.629126648930641522E-21, 0.000000000000000000 ) ) ;
#327 = CARTESIAN_POINT ( 'NONE',  ( 0.1085418506076495232, 0.1880000000000000282, 0.000000000000000000 ) ) ;
#328 = DIRECTION ( 'NONE',  ( -1.000000000000000000, 0.000000000000000000, 0.000000000000000000 ) ) ;
#329 = AXIS2_PLACEMENT_3D ( 'NONE', #310, #183, #34 ) ;
#330 =( GEOMETRIC_REPRESENTATION_CONTEXT ( 3 ) GLOBAL_UNCERTAINTY_ASSIGNED_CONTEXT ( ( #163 ) ) GLOBAL_UNIT_ASSIGNED_CONTEXT ( ( #240, #189, #36 ) ) REPRESENTATION_CONTEXT ( 'NONE', 'WORKASPACE' ) );
#331 = DIRECTION ( 'NONE',  ( -0.000000000000000000, -0.000000000000000000, -1.000000000000000000 ) ) ;
#332 = EDGE_CURVE ( 'NONE', #290, #116, #30, .T. ) ;
#333 = FACE_OUTER_BOUND ( 'NONE', #172, .T. ) ;
ENDSEC;
END-ISO-10303-21;
